Cifra Club

Aprenda

Vou Ter Que Superar (part. Marília Mendonça)

Matheus e Kauan

Cifra: Principal (violão e guitarra)
Tom: Fm
[Intro] B9  C#9  D#m

E|------------------------------------------|
B|------------------------------------------|
G|-4/6-6-6-6h8-6h8--------------------------|
D|-----------------4------------------------|
A|------------------------------------------|
E|------------------------------------------|

E|--------------------2/4h6p4-2-------------|
B|------------------------------------------|
G|-4/6-6-6-6h8-6h8--------------------------|
D|-----------------4------------------------|
A|------------------------------------------|
E|------------------------------------------|

[Primeira Parte]

     D#m
Fui bobo

Imaturo demais
                           B9
Deixei escapar entre meus dedos
                                       F#
Seu amor, nosso apartamento futuro perfeito
                                          C#9
Se eu pudesse tentava de novo ter você aqui

       D#m
Quase morro

Tentando encontrar o contato novo
       B9
Dela agora
Eu sei que ela já tá em outra
             F#
E que vai embora
                                       C#9
Mas se existe consideração eu sei que vai me ouvir

[Pré-Refrão]

                 B9
Só vou pedir desculpas

O nosso pra sempre acabou
                         D#m
E um novo amor veio com tudo
                                                  B9
Meu erro pesou na balança e não vamos mais ficar juntos
                      C#9
Por que eu estraguei tudo

[Refrão]

                 B9
Vou ter que superar
                       C#9
Suas fotos com ele viajando
                  A#m                     D#m
E as amigas comentando que são um belo casal

                 B9
Vou ter que superar
              C#9
O dia do casamento
                 A#m                         D#m
Esperando que o tempo aos poucos possa me curar

             C#9  B9
Vou ter que su_perar
C#9                              D#m
    Que a gente não vai mais voltar
             C#9  B9
Vou ter que su_perar
C#9                              D#m
    Que a gente não vai mais voltar

[Solo] Db9  Eb9  Fm

E|------------------------------------------|
B|-7h9-7--7/9--11h14------------------------|
G|------------------------------------------|
D|------------------------------------------|
A|------------------------------------------|
E|------------------------------------------|

E|-----------------11-----------------------|
B|------9-11-11/13--------------------------|
G|-8/10-------------------------------------|
D|------------------------------------------|
A|------------------------------------------|
E|------------------------------------------|

E|-----------------11-----------------------|
B|------9-11-11/13-----9/13-9-9/11-9-8-4h6--|
G|-8/10-------------------------------------|
D|------------------------------------------|
A|------------------------------------------|
E|------------------------------------------|

[Pré-Refrão]

                 Db9
Só vou pedir desculpas

O nosso pra sempre acabou
                         Fm
E um novo amor veio com tudo
                                                  Db9
Meu erro pesou na balança e não vamos mais ficar juntos
                      Eb9
Por que eu estraguei tudo

[Refrão]

                 Db9
Vou ter que superar
                       Eb9
Suas fotos com ela viajando
                  Cm                      Fm
E as amigas comentando que são um belo casal
 
                 Db9
Vou ter que superar
              Eb9
O dia do casamento
                 Cm                          Fm
Esperando que o tempo aos poucos possa me curar

             Eb9  Db9
Vou ter que su_perar
                       Eb9
Suas fotos com ele viajando
                  Cm                      Fm
E as amigas comentando que são um belo casal

                 Db9
Vou ter que superar
              Eb9
O dia do casamento
                 Cm                          Fm
Esperando que o tempo aos poucos possa me curar

             Eb9  Db9
Vou ter que su_perar
Eb9                      Fm
    Que a gente não vai mais voltar
             Eb9  Db9
Vou ter que su_perar
Eb9                      Fm
    Que a gente não vai mais voltar
Composição de Vitor Ribas / Waldeir Pira
Colaboração e revisão:
  • Thiago Almeida
  • Manoel Neto
232.950 exibições
  • Simplificar cifra
    • ½ Tom
    • Am
    • Bbm
    • Bm
    • Cm
    • C#m
    • Dm
    • Ebm
    • Em
    • Fm
    • F#m
    • Gm
    • G#m
  • Adicionar à lista

    0 comentários

    Mostrar mais comentários

    Conseguiu tocar?

    32 Tocaram 29 Ainda não

    Grave um vídeo tocando Vou Ter Que Superar (part. Marília Mendonça) e mande pra gente!

    00:00 / 00:00
    outros vídeos desta música
    repetir qualidade Automático
    Outros vídeos desta música
    00:00 / 00:00
    Automático
    Capítulos
    • Tocando a Música
    • Apresentação / Equipamentos
    • Dicas da Música
    • Acordes Primeiro Trecho
    • Tocando Introdução
    • Ritmo Introdução
    • Tocando Primeira Parte - Pré-Refrão
    • Ritmo Primeira Parte - Pré-Refrão
    • Tocando Refrão
    • Ritmo Refrão
    • Acordes Segundo Trecho
    • Tocando Modulação - Pré-Refrão
    • Dicas Refrão Final
    • Tocando Refrão Final
    • Dicas Solo Introdução
    • Tocando Solo Introdução
    • Ensinando Solo Introdução
    • Tocando Solo Modulação
    • Ensinando Solo Modulação - Parte 1 de 2
    • Ensinando Solo Modulação - Parte 2 de 2
    • Encerramento
    OK